  0
SECTION
  2
HEADER
  9
$ACADVER
  1
AC1009
  9
$DWGCODEPAGE
  3
ansi_1252
  9
$INSBASE
 10
0.0
 20
0.0
 30
0.0
  9
$EXTMIN
 10
1.000000000000000E+20
 20
1.000000000000000E+20
 30
1.000000000000000E+20
  9
$EXTMAX
 10
-1.000000000000000E+20
 20
-1.000000000000000E+20
 30
-1.000000000000000E+20
  9
$LIMMIN
 10
0.0
 20
0.0
  9
$LIMMAX
 10
12.0
 20
9.0
  9
$ORTHOMODE
 70
     0
  9
$REGENMODE
 70
     1
  9
$FILLMODE
 70
     1
  9
$QTEXTMODE
 70
     0
  9
$MIRRTEXT
 70
     1
  9
$DRAGMODE
 70
     2
  9
$LTSCALE
 40
1.0
  9
$OSMODE
 70
    37
  9
$ATTMODE
 70
     1
  9
$TEXTSIZE
 40
0.2
  9
$TRACEWID
 40
0.05
  9
$TEXTSTYLE
  7
STANDARD
  9
$CLAYER
  8
DRAFT
  9
$CELTYPE
  6
BYLAYER
  9
$CECOLOR
 62
   256
  9
$DIMSCALE
 40
1.0
  9
$DIMASZ
 40
0.18
  9
$DIMEXO
 40
0.0625
  9
$DIMDLI
 40
0.38
  9
$DIMRND
 40
0.0
  9
$DIMDLE
 40
0.0
  9
$DIMEXE
 40
0.18
  9
$DIMTP
 40
0.0
  9
$DIMTM
 40
0.0
  9
$DIMTXT
 40
0.18
  9
$DIMCEN
 40
0.09
  9
$DIMTSZ
 40
0.0
  9
$DIMTOL
 70
     0
  9
$DIMLIM
 70
     0
  9
$DIMTIH
 70
     1
  9
$DIMTOH
 70
     1
  9
$DIMSE1
 70
     0
  9
$DIMSE2
 70
     0
  9
$DIMTAD
 70
     0
  9
$DIMZIN
 70
     0
  9
$DIMBLK
  1

  9
$DIMASO
 70
     1
  9
$DIMSHO
 70
     1
  9
$DIMPOST
  1

  9
$DIMAPOST
  1

  9
$DIMALT
 70
     0
  9
$DIMALTD
 70
     2
  9
$DIMALTF
 40
25.4
  9
$DIMLFAC
 40
1.0
  9
$DIMTOFL
 70
     0
  9
$DIMTVP
 40
0.0
  9
$DIMTIX
 70
     0
  9
$DIMSOXD
 70
     0
  9
$DIMSAH
 70
     0
  9
$DIMBLK1
  1

  9
$DIMBLK2
  1

  9
$DIMSTYLE
  2
STANDARD_ACAD
  9
$DIMCLRD
 70
     0
  9
$DIMCLRE
 70
     0
  9
$DIMCLRT
 70
     0
  9
$DIMTFAC
 40
1.0
  9
$DIMGAP
 40
0.09
  9
$LUNITS
 70
     2
  9
$LUPREC
 70
     3
  9
$SKETCHINC
 40
0.1
  9
$FILLETRAD
 40
0.5
  9
$AUNITS
 70
     0
  9
$AUPREC
 70
     0
  9
$MENU
  1
.
  9
$ELEVATION
 40
0.0
  9
$PELEVATION
 40
0.0
  9
$THICKNESS
 40
0.0
  9
$LIMCHECK
 70
     0
  9
$CHAMFERA
 40
0.0
  9
$CHAMFERB
 40
0.0
  9
$SKPOLY
 70
     0
  9
$TDCREATE
 40
2458933.408593912
  9
$TDUPDATE
 40
2458933.40861037
  9
$TDINDWG
 40
0.0000000116
  9
$TDUSRTIMER
 40
0.0000000116
  9
$USRTIMER
 70
     1
  9
$ANGBASE
 50
0.0
  9
$ANGDIR
 70
     0
  9
$PDMODE
 70
     0
  9
$PDSIZE
 40
0.0
  9
$PLINEWID
 40
0.0
  9
$COORDS
 70
     1
  9
$SPLFRAME
 70
     0
  9
$SPLINETYPE
 70
     6
  9
$SPLINESEGS
 70
     8
  9
$ATTDIA
 70
     0
  9
$ATTREQ
 70
     1
  9
$HANDLING
 70
     1
  9
$HANDSEED
  5
152
  9
$SURFTAB1
 70
     6
  9
$SURFTAB2
 70
     6
  9
$SURFTYPE
 70
     6
  9
$SURFU
 70
     6
  9
$SURFV
 70
     6
  9
$UCSNAME
  2

  9
$UCSORG
 10
0.0
 20
0.0
 30
0.0
  9
$UCSXDIR
 10
1.0
 20
0.0
 30
0.0
  9
$UCSYDIR
 10
0.0
 20
1.0
 30
0.0
  9
$PUCSNAME
  2

  9
$PUCSORG
 10
0.0
 20
0.0
 30
0.0
  9
$PUCSXDIR
 10
1.0
 20
0.0
 30
0.0
  9
$PUCSYDIR
 10
0.0
 20
1.0
 30
0.0
  9
$USERI1
 70
     0
  9
$USERI2
 70
     0
  9
$USERI3
 70
     0
  9
$USERI4
 70
     0
  9
$USERI5
 70
     0
  9
$USERR1
 40
0.0
  9
$USERR2
 40
0.0
  9
$USERR3
 40
0.0
  9
$USERR4
 40
0.0
  9
$USERR5
 40
0.0
  9
$WORLDVIEW
 70
     1
  9
$SHADEDGE
 70
     3
  9
$SHADEDIF
 70
    70
  9
$TILEMODE
 70
     1
  9
$MAXACTVP
 70
    64
  9
$PLIMCHECK
 70
     0
  9
$PEXTMIN
 10
1.000000000000000E+20
 20
1.000000000000000E+20
 30
1.000000000000000E+20
  9
$PEXTMAX
 10
-1.000000000000000E+20
 20
-1.000000000000000E+20
 30
-1.000000000000000E+20
  9
$PLIMMIN
 10
0.0
 20
0.0
  9
$PLIMMAX
 10
12.0
 20
9.0
  9
$UNITMODE
 70
     0
  9
$VISRETAIN
 70
     1
  9
$PLINEGEN
 70
     0
  9
$PSLTSCALE
 70
     1
  0
ENDSEC
  0
SECTION
  2
TABLES
  0
TABLE
  2
VPORT
 70
     1
  0
VPORT
  2
*ACTIVE
 70
     0
 10
0.0
 20
0.0
 11
1.0
 21
1.0
 12
10.42990654205607
 22
4.5
 13
0.0
 23
0.0
 14
0.5
 24
0.5
 15
0.5
 25
0.5
 16
0.0
 26
0.0
 36
1.0
 17
0.0
 27
0.0
 37
0.0
 40
9.0
 41
1.972972972850329
 42
50.0
 43
0.0
 44
0.0
 50
0.0
 51
0.0
 71
     0
 72
   100
 73
     1
 74
     3
 75
     0
 76
     0
 77
     0
 78
     0
  0
ENDTAB
  0
TABLE
  2
LTYPE
 70
     1
  0
LTYPE
  2
CONTINUOUS
 70
     0
  3
Solid line
 72
    65
 73
     0
 40
0.0
  0
ENDTAB
  0
TABLE
  2
LAYER
 70
     2
  0
LAYER
  2
0
 70
     0
 62
     7
  6
CONTINUOUS
  0
LAYER
  2
DRAFT
 70
     0
 62
    30
  6
CONTINUOUS
  0
ENDTAB
  0
TABLE
  2
STYLE
 70
     1
  0
STYLE
  2
STANDARD
 70
     0
 40
0.0
 41
1.0
 50
0.0
 71
     0
 42
0.2
  3
txt
  4

  0
ENDTAB
  0
TABLE
  2
VIEW
 70
     0
  0
ENDTAB
  0
TABLE
  2
UCS
 70
     0
  0
ENDTAB
  0
TABLE
  2
APPID
 70
     1
  0
APPID
  2
ACAD
 70
     0
  0
ENDTAB
  0
TABLE
  2
DIMSTYLE
 70
     1
  0
DIMSTYLE
  2
STANDARD_ACAD
 70
     0
  3

  4

  5

  6

  7

 40
1.0
 41
0.18
 42
0.0625
 43
0.38
 44
0.18
 45
0.0
 46
0.0
 47
0.0
 48
0.0
140
0.18
141
0.09
142
0.0
143
25.4
144
1.0
145
0.0
146
1.0
147
0.09
 71
     0
 72
     0
 73
     1
 74
     1
 75
     0
 76
     0
 77
     0
 78
     0
170
     0
171
     2
172
     0
173
     0
174
     0
175
     0
176
     0
177
     0
178
     0
  0
ENDTAB
  0
ENDSEC
  0
SECTION
  2
BLOCKS
  0
BLOCK
  8
0
  2
$MODEL_SPACE
 70
     0
 10
0.0
 20
0.0
 30
0.0
  3
$MODEL_SPACE
  1

  0
ENDBLK
  5
21
  8
0
  0
BLOCK
 67
     1
  8
0
  2
$PAPER_SPACE
 70
     0
 10
0.0
 20
0.0
 30
0.0
  3
$PAPER_SPACE
  1

  0
ENDBLK
  5
1D
 67
     1
  8
0
  0
ENDSEC
  0
SECTION
  2
ENTITIES
  0
POLYLINE
  5
6F
  8
DRAFT
 66
     1
 10
0.0
 20
0.0
 30
0.0
 70
     1
  0
VERTEX
  5
70
  8
DRAFT
 10
-363.4782060312809
 20
-457.0013347510261
 30
0.0
 42
0.240137541591474
  0
VERTEX
  5
71
  8
DRAFT
 10
-363.4529201673167
 20
-456.9884474192305
 30
0.0
  0
VERTEX
  5
72
  8
DRAFT
 10
-363.3270874290535
 20
-456.8151725189521
 30
0.0
 42
0.1583274682743833
  0
VERTEX
  5
73
  8
DRAFT
 10
-363.3211232930179
 20
-456.7968098507478
 30
0.0
  0
VERTEX
  5
74
  8
DRAFT
 10
-363.3211232930178
 20
-456.7858596513043
 30
0.0
 42
0.1583274682864339
  0
VERTEX
  5
75
  8
DRAFT
 10
-363.3270874290536
 20
-456.7674969831
 30
0.0
  0
VERTEX
  5
76
  8
DRAFT
 10
-363.4529201673167
 20
-456.5942220828217
 30
0.0
 42
0.2401375416029338
  0
VERTEX
  5
77
  8
DRAFT
 10
-363.4782060312809
 20
-456.5813347510261
 30
0.0
  0
VERTEX
  5
78
  8
DRAFT
 10
-363.5325289852767
 20
-456.5813347510261
 30
0.0
  0
VERTEX
  5
79
  8
DRAFT
 10
-363.5325289852767
 20
-456.6338544360654
 30
0.0
  0
VERTEX
  5
7A
  8
DRAFT
 10
-363.7600447598204
 20
-456.6338544360654
 30
0.0
  0
VERTEX
  5
7B
  8
DRAFT
 10
-363.7600447598204
 20
-456.5948544360654
 30
0.0
  0
VERTEX
  5
7C
  8
DRAFT
 10
-363.5715289852766
 20
-456.5948544360654
 30
0.0
  0
VERTEX
  5
7D
  8
DRAFT
 10
-363.5715289852766
 20
-456.5423347510261
 30
0.0
  0
VERTEX
  5
7E
  8
DRAFT
 10
-363.4782060312809
 20
-456.5423347510261
 30
0.0
 42
-0.2401375415992625
  0
VERTEX
  5
7F
  8
DRAFT
 10
-363.4213634090894
 20
-456.5713054729025
 30
0.0
  0
VERTEX
  5
80
  8
DRAFT
 10
-363.2955306708263
 20
-456.744580373181
 30
0.0
 42
-0.15832746828886
  0
VERTEX
  5
81
  8
DRAFT
 10
-363.2821232930178
 20
-456.7858596513044
 30
0.0
  0
VERTEX
  5
82
  8
DRAFT
 10
-363.2821232930178
 20
-456.7968098507478
 30
0.0
 42
-0.1583274682821406
  0
VERTEX
  5
83
  8
DRAFT
 10
-363.2955306708261
 20
-456.838089128871
 30
0.0
  0
VERTEX
  5
84
  8
DRAFT
 10
-363.4213634090894
 20
-457.0113640291497
 30
0.0
 42
-0.2401375415990258
  0
VERTEX
  5
85
  8
DRAFT
 10
-363.4782060312809
 20
-457.040334751026
 30
0.0
  0
VERTEX
  5
86
  8
DRAFT
 10
-363.5715289852766
 20
-457.0403347510261
 30
0.0
  0
VERTEX
  5
87
  8
DRAFT
 10
-363.5715289852766
 20
-456.9878150659867
 30
0.0
  0
VERTEX
  5
88
  8
DRAFT
 10
-363.7600447598204
 20
-456.9878150659867
 30
0.0
  0
VERTEX
  5
89
  8
DRAFT
 10
-363.7600447598204
 20
-456.9488150659867
 30
0.0
  0
VERTEX
  5
8A
  8
DRAFT
 10
-363.5325289852767
 20
-456.9488150659867
 30
0.0
  0
VERTEX
  5
8B
  8
DRAFT
 10
-363.5325289852767
 20
-457.0013347510261
 30
0.0
  0
SEQEND
  5
8C
  8
DRAFT
  0
POLYLINE
  5
8D
  8
DRAFT
 66
     1
 10
0.0
 20
0.0
 30
0.0
 70
     1
  0
VERTEX
  5
8E
  8
DRAFT
 10
-362.0726942202573
 20
-457.0013347510261
 30
0.0
 42
0.2401375415979313
  0
VERTEX
  5
8F
  8
DRAFT
 10
-362.047408356293
 20
-456.9884474192305
 30
0.0
  0
VERTEX
  5
90
  8
DRAFT
 10
-361.9215756180299
 20
-456.8151725189521
 30
0.0
 42
0.1583274682806441
  0
VERTEX
  5
91
  8
DRAFT
 10
-361.9156114819942
 20
-456.7968098507478
 30
0.0
  0
VERTEX
  5
92
  8
DRAFT
 10
-361.9156114819942
 20
-456.7858596513043
 30
0.0
 42
0.1583274682881619
  0
VERTEX
  5
93
  8
DRAFT
 10
-361.9215756180301
 20
-456.7674969831
 30
0.0
  0
VERTEX
  5
94
  8
DRAFT
 10
-362.0474083562931
 20
-456.5942220828217
 30
0.0
 42
0.2401375416029338
  0
VERTEX
  5
95
  8
DRAFT
 10
-362.0726942202573
 20
-456.5813347510261
 30
0.0
  0
VERTEX
  5
96
  8
DRAFT
 10
-362.1270171742531
 20
-456.5813347510261
 30
0.0
  0
VERTEX
  5
97
  8
DRAFT
 10
-362.1270171742531
 20
-456.6338544360654
 30
0.0
  0
VERTEX
  5
98
  8
DRAFT
 10
-362.3545329487968
 20
-456.6338544360654
 30
0.0
  0
VERTEX
  5
99
  8
DRAFT
 10
-362.3545329487968
 20
-456.5948544360654
 30
0.0
  0
VERTEX
  5
9A
  8
DRAFT
 10
-362.1660171742531
 20
-456.5948544360654
 30
0.0
  0
VERTEX
  5
9B
  8
DRAFT
 10
-362.1660171742531
 20
-456.5423347510261
 30
0.0
  0
VERTEX
  5
9C
  8
DRAFT
 10
-362.0726942202573
 20
-456.5423347510261
 30
0.0
 42
-0.2401375415996511
  0
VERTEX
  5
9D
  8
DRAFT
 10
-362.0158515980658
 20
-456.5713054729025
 30
0.0
  0
VERTEX
  5
9E
  8
DRAFT
 10
-361.8900188598028
 20
-456.744580373181
 30
0.0
 42
-0.1583274682874282
  0
VERTEX
  5
9F
  8
DRAFT
 10
-361.8766114819942
 20
-456.7858596513044
 30
0.0
  0
VERTEX
  5
A0
  8
DRAFT
 10
-361.8766114819942
 20
-456.7968098507478
 30
0.0
 42
-0.1583274682846324
  0
VERTEX
  5
A1
  8
DRAFT
 10
-361.8900188598025
 20
-456.838089128871
 30
0.0
  0
VERTEX
  5
A2
  8
DRAFT
 10
-362.0158515980658
 20
-457.0113640291497
 30
0.0
 42
-0.2401375415991556
  0
VERTEX
  5
A3
  8
DRAFT
 10
-362.0726942202573
 20
-457.040334751026
 30
0.0
  0
VERTEX
  5
A4
  8
DRAFT
 10
-362.1660171742531
 20
-457.0403347510261
 30
0.0
  0
VERTEX
  5
A5
  8
DRAFT
 10
-362.1660171742531
 20
-456.9878150659867
 30
0.0
  0
VERTEX
  5
A6
  8
DRAFT
 10
-362.3545329487968
 20
-456.9878150659867
 30
0.0
  0
VERTEX
  5
A7
  8
DRAFT
 10
-362.3545329487968
 20
-456.9488150659867
 30
0.0
  0
VERTEX
  5
A8
  8
DRAFT
 10
-362.1270171742531
 20
-456.9488150659867
 30
0.0
  0
VERTEX
  5
A9
  8
DRAFT
 10
-362.1270171742531
 20
-457.0013347510261
 30
0.0
  0
SEQEND
  5
AA
  8
DRAFT
  0
POLYLINE
  5
AB
  8
DRAFT
 66
     1
 10
0.0
 20
0.0
 30
0.0
 70
     1
  0
VERTEX
  5
AC
  8
DRAFT
 10
-352.5655055356042
 20
-457.0013347510261
 30
0.0
 42
-0.240137541590609
  0
VERTEX
  5
AD
  8
DRAFT
 10
-352.5907913995684
 20
-456.9884474192305
 30
0.0
  0
VERTEX
  5
AE
  8
DRAFT
 10
-352.7166241378316
 20
-456.8151725189521
 30
0.0
 42
-0.1583274682829665
  0
VERTEX
  5
AF
  8
DRAFT
 10
-352.7225882738673
 20
-456.7968098507478
 30
0.0
  0
VERTEX
  5
B0
  8
DRAFT
 10
-352.7225882738673
 20
-456.7858596513043
 30
0.0
 42
-0.1583274682975913
  0
VERTEX
  5
B1
  8
DRAFT
 10
-352.7166241378314
 20
-456.7674969831
 30
0.0
  0
VERTEX
  5
B2
  8
DRAFT
 10
-352.5907913995684
 20
-456.5942220828217
 30
0.0
 42
-0.2401375415946306
  0
VERTEX
  5
B3
  8
DRAFT
 10
-352.5655055356042
 20
-456.5813347510261
 30
0.0
  0
VERTEX
  5
B4
  8
DRAFT
 10
-352.5111825816085
 20
-456.5813347510261
 30
0.0
  0
VERTEX
  5
B5
  8
DRAFT
 10
-352.5111825816085
 20
-456.6338544360654
 30
0.0
  0
VERTEX
  5
B6
  8
DRAFT
 10
-352.2836668070647
 20
-456.6338544360654
 30
0.0
  0
VERTEX
  5
B7
  8
DRAFT
 10
-352.2836668070647
 20
-456.5948544360654
 30
0.0
  0
VERTEX
  5
B8
  8
DRAFT
 10
-352.4721825816085
 20
-456.5948544360654
 30
0.0
  0
VERTEX
  5
B9
  8
DRAFT
 10
-352.4721825816085
 20
-456.5423347510261
 30
0.0
  0
VERTEX
  5
BA
  8
DRAFT
 10
-352.5655055356042
 20
-456.5423347510261
 30
0.0
 42
0.2401375415992663
  0
VERTEX
  5
BB
  8
DRAFT
 10
-352.6223481577957
 20
-456.5713054729025
 30
0.0
  0
VERTEX
  5
BC
  8
DRAFT
 10
-352.7481808960588
 20
-456.744580373181
 30
0.0
 42
0.1583274682915478
  0
VERTEX
  5
BD
  8
DRAFT
 10
-352.7615882738673
 20
-456.7858596513044
 30
0.0
  0
VERTEX
  5
BE
  8
DRAFT
 10
-352.7615882738673
 20
-456.7968098507478
 30
0.0
 42
0.1583274682814798
  0
VERTEX
  5
BF
  8
DRAFT
 10
-352.748180896059
 20
-456.838089128871
 30
0.0
  0
VERTEX
  5
C0
  8
DRAFT
 10
-352.6223481577957
 20
-457.0113640291497
 30
0.0
 42
0.2401375415988738
  0
VERTEX
  5
C1
  8
DRAFT
 10
-352.5655055356042
 20
-457.040334751026
 30
0.0
  0
VERTEX
  5
C2
  8
DRAFT
 10
-352.4721825816085
 20
-457.0403347510261
 30
0.0
  0
VERTEX
  5
C3
  8
DRAFT
 10
-352.4721825816085
 20
-456.9878150659867
 30
0.0
  0
VERTEX
  5
C4
  8
DRAFT
 10
-352.2836668070647
 20
-456.9878150659867
 30
0.0
  0
VERTEX
  5
C5
  8
DRAFT
 10
-352.2836668070647
 20
-456.9488150659867
 30
0.0
  0
VERTEX
  5
C6
  8
DRAFT
 10
-352.5111825816085
 20
-456.9488150659867
 30
0.0
  0
VERTEX
  5
C7
  8
DRAFT
 10
-352.5111825816085
 20
-457.0013347510261
 30
0.0
  0
SEQEND
  5
C8
  8
DRAFT
  0
POLYLINE
  5
C9
  8
DRAFT
 66
     1
 10
0.0
 20
0.0
 30
0.0
 70
     1
  0
VERTEX
  5
CA
  8
DRAFT
 10
-353.9710173466278
 20
-457.0013347510261
 30
0.0
 42
-0.2401375415933347
  0
VERTEX
  5
CB
  8
DRAFT
 10
-353.996303210592
 20
-456.9884474192305
 30
0.0
  0
VERTEX
  5
CC
  8
DRAFT
 10
-354.1221359488552
 20
-456.8151725189521
 30
0.0
 42
-0.1583274682844236
  0
VERTEX
  5
CD
  8
DRAFT
 10
-354.1281000848909
 20
-456.7968098507478
 30
0.0
  0
VERTEX
  5
CE
  8
DRAFT
 10
-354.1281000848909
 20
-456.7858596513043
 30
0.0
 42
-0.1583274682899282
  0
VERTEX
  5
CF
  8
DRAFT
 10
-354.1221359488551
 20
-456.7674969831
 30
0.0
  0
VERTEX
  5
D0
  8
DRAFT
 10
-353.996303210592
 20
-456.5942220828217
 30
0.0
 42
-0.2401375415972138
  0
VERTEX
  5
D1
  8
DRAFT
 10
-353.9710173466278
 20
-456.5813347510261
 30
0.0
  0
VERTEX
  5
D2
  8
DRAFT
 10
-353.9166943926321
 20
-456.5813347510261
 30
0.0
  0
VERTEX
  5
D3
  8
DRAFT
 10
-353.9166943926321
 20
-456.6338544360654
 30
0.0
  0
VERTEX
  5
D4
  8
DRAFT
 10
-353.6891786180883
 20
-456.6338544360654
 30
0.0
  0
VERTEX
  5
D5
  8
DRAFT
 10
-353.6891786180883
 20
-456.5948544360654
 30
0.0
  0
VERTEX
  5
D6
  8
DRAFT
 10
-353.8776943926321
 20
-456.5948544360654
 30
0.0
  0
VERTEX
  5
D7
  8
DRAFT
 10
-353.8776943926321
 20
-456.5423347510261
 30
0.0
  0
VERTEX
  5
D8
  8
DRAFT
 10
-353.9710173466278
 20
-456.5423347510261
 30
0.0
 42
0.2401375415982322
  0
VERTEX
  5
D9
  8
DRAFT
 10
-354.0278599688193
 20
-456.5713054729025
 30
0.0
  0
VERTEX
  5
DA
  8
DRAFT
 10
-354.1536927070824
 20
-456.744580373181
 30
0.0
 42
0.1583274682908428
  0
VERTEX
  5
DB
  8
DRAFT
 10
-354.1671000848909
 20
-456.7858596513044
 30
0.0
  0
VERTEX
  5
DC
  8
DRAFT
 10
-354.1671000848909
 20
-456.7968098507478
 30
0.0
 42
0.1583274682803941
  0
VERTEX
  5
DD
  8
DRAFT
 10
-354.1536927070826
 20
-456.838089128871
 30
0.0
  0
VERTEX
  5
DE
  8
DRAFT
 10
-354.0278599688193
 20
-457.0113640291497
 30
0.0
 42
0.2401375416000008
  0
VERTEX
  5
DF
  8
DRAFT
 10
-353.9710173466278
 20
-457.0403347510259
 30
0.0
  0
VERTEX
  5
E0
  8
DRAFT
 10
-353.8776943926321
 20
-457.0403347510261
 30
0.0
  0
VERTEX
  5
E1
  8
DRAFT
 10
-353.8776943926321
 20
-456.9878150659867
 30
0.0
  0
VERTEX
  5
E2
  8
DRAFT
 10
-353.6891786180883
 20
-456.9878150659867
 30
0.0
  0
VERTEX
  5
E3
  8
DRAFT
 10
-353.6891786180883
 20
-456.9488150659867
 30
0.0
  0
VERTEX
  5
E4
  8
DRAFT
 10
-353.9166943926321
 20
-456.9488150659867
 30
0.0
  0
VERTEX
  5
E5
  8
DRAFT
 10
-353.9166943926321
 20
-457.0013347510261
 30
0.0
  0
SEQEND
  5
E6
  8
DRAFT
  0
POLYLINE
  5
E7
  8
DRAFT
 66
     1
 10
0.0
 20
0.0
 30
0.0
 70
     1
  0
VERTEX
  5
E8
  8
DRAFT
 10
-365.6638542612822
 20
-458.4270303165156
 30
0.0
  0
VERTEX
  5
E9
  8
DRAFT
 10
-365.7815150523953
 20
-458.4167363311516
 30
0.0
 42
0.4142135623748874
  0
VERTEX
  5
EA
  8
DRAFT
 10
-365.8241666445544
 20
-458.4525252664014
 30
0.0
  0
VERTEX
  5
EB
  8
DRAFT
 10
-365.8556490831256
 20
-458.8123711858894
 30
0.0
 42
0.414213562373048
  0
VERTEX
  5
EC
  8
DRAFT
 10
-365.8198601478758
 20
-458.8550227780483
 30
0.0
  0
VERTEX
  5
ED
  8
DRAFT
 10
-365.7021993567627
 20
-458.8653167634123
 30
0.0
 42
0.4142135623743978
  0
VERTEX
  5
EE
  8
DRAFT
 10
-365.6595477646035
 20
-458.8295278281625
 30
0.0
  0
VERTEX
  5
EF
  8
DRAFT
 10
-365.6280653260322
 20
-458.4696819086747
 30
0.0
 42
0.414213562373155
  0
SEQEND
  5
F0
  8
DRAFT
  0
POLYLINE
  5
F1
  8
DRAFT
 66
     1
 10
0.0
 20
0.0
 30
0.0
 70
     1
  0
VERTEX
  5
F2
  8
DRAFT
 10
-366.1619516103279
 20
-458.3834524451418
 30
0.0
  0
VERTEX
  5
F3
  8
DRAFT
 10
-366.2796124014411
 20
-458.3731584597778
 30
0.0
 42
0.41421356237427
  0
VERTEX
  5
F4
  8
DRAFT
 10
-366.3222639936002
 20
-458.4089473950276
 30
0.0
  0
VERTEX
  5
F5
  8
DRAFT
 10
-366.3537464321715
 20
-458.7687933145154
 30
0.0
 42
0.4142135623754172
  0
VERTEX
  5
F6
  8
DRAFT
 10
-366.3179574969216
 20
-458.8114449066744
 30
0.0
  0
VERTEX
  5
F7
  8
DRAFT
 10
-366.2002967058085
 20
-458.8217388920385
 30
0.0
 42
0.4142135623732426
  0
VERTEX
  5
F8
  8
DRAFT
 10
-366.1576451136496
 20
-458.7859499567887
 30
0.0
  0
VERTEX
  5
F9
  8
DRAFT
 10
-366.1261626750783
 20
-458.4261040373008
 30
0.0
 42
0.4142135623755312
  0
SEQEND
  5
FA
  8
DRAFT
  0
POLYLINE
  5
FB
  8
DRAFT
 66
     1
 10
0.0
 20
0.0
 30
0.0
 70
     1
  0
VERTEX
  5
FC
  8
DRAFT
 10
-350.3798573056052
 20
-458.4270303165154
 30
0.0
 42
0.4142135623703234
  0
VERTEX
  5
FD
  8
DRAFT
 10
-350.4156462408549
 20
-458.4696819086744
 30
0.0
  0
VERTEX
  5
FE
  8
DRAFT
 10
-350.3841638022838
 20
-458.8295278281623
 30
0.0
 42
0.4142135623729385
  0
VERTEX
  5
FF
  8
DRAFT
 10
-350.3415122101247
 20
-458.8653167634121
 30
0.0
  0
VERTEX
  5
100
  8
DRAFT
 10
-350.2238514190116
 20
-458.8550227780481
 30
0.0
 42
0.4142135623723595
  0
VERTEX
  5
101
  8
DRAFT
 10
-350.1880624837615
 20
-458.8123711858892
 30
0.0
  0
VERTEX
  5
102
  8
DRAFT
 10
-350.2195449223331
 20
-458.4525252664012
 30
0.0
 42
0.4142135623733938
  0
VERTEX
  5
103
  8
DRAFT
 10
-350.2621965144921
 20
-458.4167363311515
 30
0.0
  0
SEQEND
  5
104
  8
DRAFT
  0
POLYLINE
  5
105
  8
DRAFT
 66
     1
 10
0.0
 20
0.0
 30
0.0
 70
     1
  0
VERTEX
  5
106
  8
DRAFT
 10
-349.8817599565593
 20
-458.3834524451416
 30
0.0
 42
0.4142135623707411
  0
VERTEX
  5
107
  8
DRAFT
 10
-349.9175488918091
 20
-458.4261040373006
 30
0.0
  0
VERTEX
  5
108
  8
DRAFT
 10
-349.8860664532377
 20
-458.7859499567884
 30
0.0
 42
0.4142135623712535
  0
VERTEX
  5
109
  8
DRAFT
 10
-349.8434148610788
 20
-458.8217388920382
 30
0.0
  0
VERTEX
  5
10A
  8
DRAFT
 10
-349.7257540699657
 20
-458.8114449066742
 30
0.0
 42
0.4142135623689379
  0
VERTEX
  5
10B
  8
DRAFT
 10
-349.6899651347159
 20
-458.7687933145152
 30
0.0
  0
VERTEX
  5
10C
  8
DRAFT
 10
-349.7214475732872
 20
-458.4089473950274
 30
0.0
 42
0.4142135623728815
  0
VERTEX
  5
10D
  8
DRAFT
 10
-349.7640991654462
 20
-458.3731584597776
 30
0.0
  0
SEQEND
  5
10E
  8
DRAFT
  0
POLYLINE
  5
10F
  8
DRAFT
 66
     1
 10
0.0
 20
0.0
 30
0.0
 70
     1
  0
VERTEX
  5
110
  8
DRAFT
 10
-364.7806314429428
 20
-458.5489525230254
 30
0.0
  0
VERTEX
  5
111
  8
DRAFT
 10
-364.898292234056
 20
-458.5386585376614
 30
0.0
  0
VERTEX
  5
112
  8
DRAFT
 10
-364.9288838997605
 20
-458.8883228766917
 30
0.0
  0
VERTEX
  5
113
  8
DRAFT
 10
-364.8112231086473
 20
-458.8986168620556
 30
0.0
  0
SEQEND
  5
114
  8
DRAFT
  0
POLYLINE
  5
115
  8
DRAFT
 66
     1
 10
0.0
 20
0.0
 30
0.0
 70
     1
  0
VERTEX
  5
116
  8
DRAFT
 10
-363.5287204855134
 20
-459.0108213025219
 30
0.0
  0
VERTEX
  5
117
  8
DRAFT
 10
-363.4110596944003
 20
-459.0211152878858
 30
0.0
  0
VERTEX
  5
118
  8
DRAFT
 10
-363.3804680286958
 20
-458.6714509488557
 30
0.0
  0
VERTEX
  5
119
  8
DRAFT
 10
-363.4981288198089
 20
-458.6611569634918
 30
0.0
  0
SEQEND
  5
11A
  8
DRAFT
  0
POLYLINE
  5
11B
  8
DRAFT
 66
     1
 10
0.0
 20
0.0
 30
0.0
 70
     1
  0
VERTEX
  5
11C
  8
DRAFT
 10
-351.263080123944
 20
-458.5489525230252
 30
0.0
  0
VERTEX
  5
11D
  8
DRAFT
 10
-351.2324884582396
 20
-458.8986168620553
 30
0.0
  0
VERTEX
  5
11E
  8
DRAFT
 10
-351.1148276671264
 20
-458.8883228766915
 30
0.0
  0
VERTEX
  5
11F
  8
DRAFT
 10
-351.1454193328308
 20
-458.5386585376612
 30
0.0
  0
SEQEND
  5
120
  8
DRAFT
  0
POLYLINE
  5
121
  8
DRAFT
 66
     1
 10
0.0
 20
0.0
 30
0.0
 70
     1
  0
VERTEX
  5
122
  8
DRAFT
 10
-352.5149910813735
 20
-459.0108213025218
 30
0.0
  0
VERTEX
  5
123
  8
DRAFT
 10
-352.5455827470779
 20
-458.6611569634917
 30
0.0
  0
VERTEX
  5
124
  8
DRAFT
 10
-352.6632435381911
 20
-458.6714509488556
 30
0.0
  0
VERTEX
  5
125
  8
DRAFT
 10
-352.6326518724867
 20
-459.0211152878857
 30
0.0
  0
SEQEND
  5
126
  8
DRAFT
  0
POLYLINE
  5
127
  8
DRAFT
 66
     1
 10
0.0
 20
0.0
 30
0.0
 70
     1
  0
VERTEX
  5
128
  8
DRAFT
 10
-362.7491192086937
 20
-459.7811995526753
 30
0.0
  0
VERTEX
  5
129
  8
DRAFT
 10
-366.3957523086268
 20
-459.4621604963931
 30
0.0
 42
-0.4142135623728093
  0
VERTEX
  5
12A
  8
DRAFT
 10
-366.7536416611244
 20
-459.0356445748027
 30
0.0
  0
VERTEX
  5
12B
  8
DRAFT
 10
-366.6697456804088
 20
-458.0767091272301
 30
0.0
 42
-0.4142135623729566
  0
VERTEX
  5
12C
  8
DRAFT
 10
-366.2432297588178
 20
-457.7188197747322
 30
0.0
  0
VERTEX
  5
12D
  8
DRAFT
 10
-360.714987421149
 20
-458.0393201508826
 30
0.0
 42
0.0142780111746359
  0
VERTEX
  5
12E
  8
DRAFT
 10
-355.3287241457361
 20
-458.0393201508827
 30
0.0
  0
VERTEX
  5
12F
  8
DRAFT
 10
-349.8004818080694
 20
-457.7188197747319
 30
0.0
 42
-0.4142135623726186
  0
VERTEX
  5
130
  8
DRAFT
 10
-349.3739658864792
 20
-458.0767091272295
 30
0.0
  0
VERTEX
  5
131
  8
DRAFT
 10
-349.2900699057633
 20
-459.0356445748022
 30
0.0
 42
-0.414213562372924
  0
VERTEX
  5
132
  8
DRAFT
 10
-349.647959258261
 20
-459.4621604963924
 30
0.0
  0
VERTEX
  5
133
  8
DRAFT
 10
-353.2945923581937
 20
-459.7811995526751
 30
0.0
 42
1.000000000003466
  0
VERTEX
  5
134
  8
DRAFT
 10
-353.2891451242716
 20
-459.8434617213059
 30
0.0
  0
VERTEX
  5
135
  8
DRAFT
 10
-352.8192352703114
 20
-459.8023499362052
 30
0.0
 42
-0.4400105308922045
  0
VERTEX
  5
136
  8
DRAFT
 10
-352.5474463346245
 20
-460.0513986107281
 30
0.0
  0
VERTEX
  5
137
  8
DRAFT
 10
-352.5474463346245
 20
-466.7349549887236
 30
0.0
 42
-0.3888787318533271
  0
VERTEX
  5
138
  8
DRAFT
 10
-353.460290591877
 20
-467.7311496868154
 30
0.0
  0
VERTEX
  5
139
  8
DRAFT
 10
-357.9347000406959
 20
-468.1226097895602
 30
0.0
 42
-0.0436609429071141
  0
VERTEX
  5
13A
  8
DRAFT
 10
-358.109011526191
 20
-468.1226097895602
 30
0.0
  0
VERTEX
  5
13B
  8
DRAFT
 10
-362.5834209750097
 20
-467.7311496868157
 30
0.0
 42
-0.3888787318533574
  0
VERTEX
  5
13C
  8
DRAFT
 10
-363.4962652322623
 20
-466.7349549887239
 30
0.0
  0
VERTEX
  5
13D
  8
DRAFT
 10
-363.4962652322625
 20
-460.0513986107283
 30
0.0
 42
-0.4400105308918509
  0
VERTEX
  5
13E
  8
DRAFT
 10
-363.2244762965755
 20
-459.8023499362055
 30
0.0
  0
VERTEX
  5
13F
  8
DRAFT
 10
-362.7545664426153
 20
-459.8434617213059
 30
0.0
 42
0.9163311740298269
  0
SEQEND
  5
140
  8
DRAFT
  0
POLYLINE
  5
141
  8
DRAFT
 66
     1
 10
0.0
 20
0.0
 30
0.0
 70
     1
  0
VERTEX
  5
142
  8
DRAFT
 10
-363.7125368153979
 20
-455.9163347509631
 30
0.0
 42
0.4142135623731004
  0
VERTEX
  5
143
  8
DRAFT
 10
-364.0875368153978
 20
-456.2913347509631
 30
0.0
  0
VERTEX
  5
144
  8
DRAFT
 10
-364.0875368153979
 20
-457.2913347510195
 30
0.0
 42
0.4142135623726511
  0
VERTEX
  5
145
  8
DRAFT
 10
-363.7125368153979
 20
-457.6663347510195
 30
0.0
  0
VERTEX
  5
146
  8
DRAFT
 10
-352.3311747514872
 20
-457.6663347510202
 30
0.0
 42
0.4142135623724789
  0
VERTEX
  5
147
  8
DRAFT
 10
-351.9561747514874
 20
-457.2913347510202
 30
0.0
  0
VERTEX
  5
148
  8
DRAFT
 10
-351.9561747514871
 20
-456.2913347509638
 30
0.0
 42
0.4142135623725806
  0
VERTEX
  5
149
  8
DRAFT
 10
-352.3311747514871
 20
-455.9163347509639
 30
0.0
  0
SEQEND
  5
14A
  8
DRAFT
  0
ENDSEC
  0
EOF
